Beginner Lesson Series:

Learning Tablature (Tabs)











Section 1- Chords
C 032010

Em 022000

Section 2- Single Notes Am F G
E [--------------------------------------- -----------------------]
B [-------1-----0-----0---1--------------- 1---------------0------]
G [-----2---2-----2---------2---2------2-- -2--------0-----0---0--]
D [---2-------2-----2---2-----2------3---- ---3--------0-----0----]
A [-0---------------------------------3--- -----------2-----------]
E [--------------------------------------- -----------3-----------]

Section 3- Finger Picking
e-2h3-----3-3------3-----------2h3-----3 --3------3---------------|
B-----0-------3----3---3-----3------0--- ----3----3---3-----3-----|
G-------0--------0---------0----------0- --------0----------0-----|
D-2-----------2----------2-------2------ -----2-----------2-------|
A--------------------------------------- -------------------------|
E--------------------------------------- -------------------------|

Section 4- Techniques (Bend,Slide, HammerOn,Pull Off,Harmonics)





Never touched a guitar before? Lessons for beginners...




 



Last 4 Forum Posts
Post Your Stuff
Canada Goose Parka | Canada...
sm4wcv
12/31/2012 - 10:45 P.M.

Post Your Stuff
cheap uggs na54
bityFlibranna
12/31/2012 - 10:42 P.M.

Post Your Stuff
cheap ugg boots uk kn24
tamnpymnneevy
12/31/2012 - 10:41 P.M.

Post Your Stuff
Canada Goose Parkas - Autho...
vd0isl
12/31/2012 - 10:40 P.M.


Live Video Chat
Next Lesson
T.B.A.

Room Status: X- Closed

Reigster Now for you
FREE Video Chat Account
at www.stickam.com

Sites Stats
as of 07/22/2011 - 2 A.M.
Lessons On-Line:317
Site Visitors:226053
Lessons Given:975994
Forum Posts:15636
Forum Members:46273






© Aaron Gallagher